您现在的位置是:首页 > 新闻资讯新闻资讯

求 Rogue Wave - eyes 的吉他简谱

吉他重庆2022-06-06【新闻资讯】人已围观

简介只有和弦谱



Rogue Wave - Eyes



F# C#

Missed the last train home,

F# Bbm F#

Birds pass by to tell me that I'm no

只有和弦谱

Rogue Wave - Eyes

F# C#
Missed the last train home,
F# Bbm F#
Birds pass by to tell me that I'm not alone.
C# F#
Over pushing myself to finish this part,
C# F# C#
Handle a lot, One I thing I’m missing,
C#(barre) F#(barre)
It's in your eyes, In your eyes (x2)
Bbm F# C#
In your eyes, in your eyes, in your eyes
F# C#
Have you seen this film?
F# Bbm F#
It reminds me of walking through the avenues.
C# F#
Washing my hands, Attachment scared,
C# F# C#
Land on the Ground, One thing I’m missing,
C# F#
It's in your eyes, In your eyes (x2)
Bbm F# C#
In your eyes, in your eyes, in your eyes

Solo- C#
Outro-
C# F#
It's in your eyes, In your eyes (x4)

Intro
E-------------------------------------|
B---------9----9---9----------------|
G--8/10---10-------10/8--6--6---|
D-------------------------------------|
A-------------------------------------|
E-------------------------------------|

E-----------------------------------------|
B---------9----9---9----9---------------|
G--8/10---10-------10---10/8--6--6-|
D-----------------------------------------|
A-----------------------------------------|
E-----------------------------------------|

in your eyes In your eyes in your eyes in your eyes

E--------------------------------------------|
B--18-18-14-14---18-18-14-15-14---|
G--------------------------------------------| x3
D--------------------------------------------|
A--------------------------------------------|
E--------------------------------------------|

Tags:简谱   吉他   Rogue

很赞哦! ()

文章评论

    共有条评论来说两句吧...

    用户名:

    验证码:

本站推荐

网站信息

  • 网站名称吉他重庆
  • 建站时间:2019-10-18
  • 网站程序:帝国CMS7.5
  • 文章统计6773篇文章
  • xml地图xml网站地图
  • 网站标签全部标签
  • 微信公众号:扫描二维码,关注我们